0
SECTION
2
HEADER
0
ENDSEC
0
SECTION
2
TABLES
0
ENDSEC
0
SECTION
2
BLOCKS
0
ENDSEC
0
SECTION
2
ENTITIES
0
POLYLINE
8
R2V
62
0
66
1
70
8
0
VERTEX
8
R2V
62
0
70
32
10
7.095238
20
2.500000
30
0
0
VERTEX
8
R2V
62
0
70
32
10
7.119048
20
2.571429
30
0
0
VERTEX
8
R2V
62
0
70
32
10
7.166667
20
2.571429
30
0
0
VERTEX
8
R2V
62
0
70
32
10
7.142857
20
2.500000
30
0
0
VERTEX
8
R2V
62
0
70
32
10
7.000000
20
2.452381
30
0
0
VERTEX
8
R2V
62
0
70
32
10
6.738095
20
2.333333
30
0
0
VERTEX
8
R2V
62
0
70
32
10
6.476190
20
2.380952
30
0
0
VERTEX
8
R2V
62
0
70
32
10
6.166667
20
2.476190
30
0
0
VERTEX
8
R2V
62
0
70
32
10
5.952381
20
2.595238
30
0
0
VERTEX
8
R2V
62
0
70
32
10
5.595238
20
2.690476
30
0
0
VERTEX
8
R2V
62
0
70
32
10
5.523810
20
2.761905
30
0
0
VERTEX
8
R2V
62
0
70
32
10
5.238095
20
2.857143
30
0
0
VERTEX
8
R2V
62
0
70
32
10
5.023810
20
3.023810
30
0
0
VERTEX
8
R2V
62
0
70
32
10
4.904762
20
3.071429
30
0
0
VERTEX
8
R2V
62
0
70
32
10
4.857143
20
3.071429
30
0
0
VERTEX
8
R2V
62
0
70
32
10
4.452381
20
3.214286
30
0
0
VERTEX
8
R2V
62
0
70
32
10
4.309524
20
3.380952
30
0
0
VERTEX
8
R2V
62
0
70
32
10
4.214286
20
3.404762
30
0
0
VERTEX
8
R2V
62
0
70
32
10
4.214286
20
3.452381
30
0
0
VERTEX
8
R2V
62
0
70
32
10
3.976190
20
3.547619
30
0
0
VERTEX
8
R2V
62
0
70
32
10
3.809524
20
3.880952
30
0
0
VERTEX
8
R2V
62
0
70
32
10
3.928571
20
3.928571
30
0
0
VERTEX
8
R2V
62
0
70
32
10
3.880952
20
4.047619
30
0
0
VERTEX
8
R2V
62
0
70
32
10
3.952381
20
4.095238
30
0
0
VERTEX
8
R2V
62
0
70
32
10
3.928571
20
4.238095
30
0
0
VERTEX
8
R2V
62
0
70
32
10
3.809524
20
4.404762
30
0
0
VERTEX
8
R2V
62
0
70
32
10
3.785714
20
4.571429
30
0
0
VERTEX
8
R2V
62
0
70
32
10
3.547619
20
4.833333
30
0
0
VERTEX
8
R2V
62
0
70
32
10
3.500000
20
4.904762
30
0
0
VERTEX
8
R2V
62
0
70
32
10
3.309524
20
5.119048
30
0
0
VERTEX
8
R2V
62
0
70
32
10
3.071429
20
5.309524
30
0
0
VERTEX
8
R2V
62
0
70
32
10
3.023810
20
5.476190
30
0
0
VERTEX
8
R2V
62
0
70
32
10
2.952381
20
5.500000
30
0
0
VERTEX
8
R2V
62
0
70
32
10
2.857143
20
5.547619
30
0
0
VERTEX
8
R2V
62
0
70
32
10
2.857143
20
5.595238
30
0
0
VERTEX
8
R2V
62
0
70
32
10
2.738095
20
5.619048
30
0
0
VERTEX
8
R2V
62
0
70
32
10
2.642857
20
5.690476
30
0
0
VERTEX
8
R2V
62
0
70
32
10
2.666667
20
5.809524
30
0
0
VERTEX
8
R2V
62
0
70
32
10
2.714286
20
5.833333
30
0
0
VERTEX
8
R2V
62
0
70
32
10
2.642857
20
6.000000
30
0
0
VERTEX
8
R2V
62
0
70
32
10
2.523810
20
6.023810
30
0
0
VERTEX
8
R2V
62
0
70
32
10
2.476190
20
6.142857
30
0
0
VERTEX
8
R2V
62
0
70
32
10
2.333333
20
6.190476
30
0
0
VERTEX
8
R2V
62
0
70
32
10
2.261905
20
6.333333
30
0
0
VERTEX
8
R2V
62
0
70
32
10
2.261905
20
6.404762
30
0
0
VERTEX
8
R2V
62
0
70
32
10
2.071429
20
6.476190
30
0
0
VERTEX
8
R2V
62
0
70
32
10
2.000000
20
6.595238
30
0
0
VERTEX
8
R2V
62
0
70
32
10
1.928571
20
6.619048
30
0
0
VERTEX
8
R2V
62
0
70
32
10
1.833333
20
6.761905
30
0
0
VERTEX
8
R2V
62
0
70
32
10
1.785714
20
6.785714
30
0
0
VERTEX
8
R2V
62
0
70
32
10
1.761905
20
6.928571
30
0
0
VERTEX
8
R2V
62
0
70
32
10
1.714286
20
6.952381
30
0
0
VERTEX
8
R2V
62
0
70
32
10
1.714286
20
7.000000
30
0
0
VERTEX
8
R2V
62
0
70
32
10
1.619048
20
7.119048
30
0
0
VERTEX
8
R2V
62
0
70
32
10
1.595238
20
7.285714
30
0
0
VERTEX
8
R2V
62
0
70
32
10
1.500000
20
7.428571
30
0
0
VERTEX
8
R2V
62
0
70
32
10
1.500000
20
7.595238
30
0
0
VERTEX
8
R2V
62
0
70
32
10
1.333333
20
7.666667
30
0
0
VERTEX
8
R2V
62
0
70
32
10
1.285714
20
7.738095
30
0
0
VERTEX
8
R2V
62
0
70
32
10
1.238095
20
7.761905
30
0
0
VERTEX
8
R2V
62
0
70
32
10
1.214286
20
7.690476
30
0
0
VERTEX
8
R2V
62
0
70
32
10
0.976190
20
7.809524
30
0
0
SEQEND
0
POLYLINE
8
R2V
62
0
66
1
70
8
0
VERTEX
8
R2V
62
0
70
32
10
7.166667
20
2.523810
30
0
0
VERTEX
8
R2V
62
0
70
32
10
7.214286
20
2.523810
30
0
0
VERTEX
8
R2V
62
0
70
32
10
7.476190
20
2.404762
30
0
0
VERTEX
8
R2V
62
0
70
32
10
7.809524
20
2.166667
30
0
0
VERTEX
8
R2V
62
0
70
32
10
7.952381
20
1.976190
30
0
0
VERTEX
8
R2V
62
0
70
32
10
8.000000
20
2.142857
30
0
0
VERTEX
8
R2V
62
0
70
32
10
8.000000
20
2.261905
30
0
0
VERTEX
8
R2V
62
0
70
32
10
8.119048
20
2.452381
30
0
0
VERTEX
8
R2V
62
0
70
32
10
8.523810
20
2.452381
30
0
0
VERTEX
8
R2V
62
0
70
32
10
8.500000
20
2.595238
30
0
0
VERTEX
8
R2V
62
0
70
32
10
8.452381
20
2.595238
30
0
0
VERTEX
8
R2V
62
0
70
32
10
8.428571
20
2.690476
30
0
0
VERTEX
8
R2V
62
0
70
32
10
8.261905
20
2.785714
30
0
0
VERTEX
8
R2V
62
0
70
32
10
8.261905
20
2.833333
30
0
0
VERTEX
8
R2V
62
0
70
32
10
8.357143
20
2.833333
30
0
0
VERTEX
8
R2V
62
0
70
32
10
8.357143
20
3.023810
30
0
0
VERTEX
8
R2V
62
0
70
32
10
8.928571
20
3.023810
30
0
0
VERTEX
8
R2V
62
0
70
32
10
8.928571
20
3.071429
30
0
0
VERTEX
8
R2V
62
0
70
32
10
8.976190
20
3.071429
30
0
0
VERTEX
8
R2V
62
0
70
32
10
9.000000
20
3.047619
30
0
0
VERTEX
8
R2V
62
0
70
32
10
9.119048
20
3.238095
30
0
0
VERTEX
8
R2V
62
0
70
32
10
9.190476
20
3.261905
30
0
0
VERTEX
8
R2V
62
0
70
32
10
9.261905
20
3.357143
30
0
0
VERTEX
8
R2V
62
0
70
32
10
9.285714
20
3.214286
30
0
0
VERTEX
8
R2V
62
0
70
32
10
9.309524
20
3.142857
30
0
0
SEQEND
0
POLYLINE
8
R2V
62
0
66
1
70
8
0
VERTEX
8
R2V
62
0
70
32
10
9.309524
20
3.190476
30
0
0
VERTEX
8
R2V
62
0
70
32
10
9.380952
20
3.333333
30
0
0
VERTEX
8
R2V
62
0
70
32
10
9.428571
20
3.500000
30
0
0
VERTEX
8
R2V
62
0
70
32
10
9.357143
20
3.500000
30
0
0
VERTEX
8
R2V
62
0
70
32
10
9.380952
20
3.476190
30
0
0
VERTEX
8
R2V
62
0
70
32
10
9.404762
20
3.523810
30
0
0
SEQEND
0
POLYLINE
8
R2V
62
0
66
1
70
8
0
VERTEX
8
R2V
62
0
70
32
10
9.261905
20
3.261905
30
0
0
VERTEX
8
R2V
62
0
70
32
10
9.238095
20
3.261905
30
0
0
VERTEX
8
R2V
62
0
70
32
10
9.214286
20
3.285714
30
0
0
SEQEND
0
POLYLINE
8
R2V
62
0
66
1
70
8
0
VERTEX
8
R2V
62
0
70
32
10
9.261905
20
3.261905
30
0
0
VERTEX
8
R2V
62
0
70
32
10
9.285714
20
3.238095
30
0
0
SEQEND
0
POLYLINE
8
R2V
62
0
66
1
70
8
0
VERTEX
8
R2V
62
0
70
32
10
8.071429
20
3.285714
30
0
0
VERTEX
8
R2V
62
0
70
32
10
8.238095
20
3.357143
30
0
0
VERTEX
8
R2V
62
0
70
32
10
8.238095
20
3.285714
30
0
0
VERTEX
8
R2V
62
0
70
32
10
8.190476
20
3.238095
30
0
0
VERTEX
8
R2V
62
0
70
32
10
8.071429
20
3.238095
30
0
0
VERTEX
8
R2V
62
0
70
32
10
8.095238
20
3.309524
30
0
0
SEQEND
0
POLYLINE
8
R2V
62
0
66
1
70
8
0
VERTEX
8
R2V
62
0
70
32
10
8.071429
20
3.285714
30
0
0
VERTEX
8
R2V
62
0
70
32
10
7.857143
20
3.285714
30
0
0
VERTEX
8
R2V
62
0
70
32
10
7.642857
20
3.214286
30
0
0
VERTEX
8
R2V
62
0
70
32
10
7.547619
20
3.214286
30
0
0
VERTEX
8
R2V
62
0
70
32
10
7.380952
20
3.142857
30
0
0
VERTEX
8
R2V
62
0
70
32
10
7.214286
20
3.166667
30
0
0
VERTEX
8
R2V
62
0
70
32
10
7.166667
20
3.261905
30
0
0
VERTEX
8
R2V
62
0
70
32
10
7.095238
20
3.285714
30
0
0
VERTEX
8
R2V
62
0
70
32
10
6.833333
20
3.357143
30
0
0
VERTEX
8
R2V
62
0
70
32
10
6.690476
20
3.571429
30
0
0
VERTEX
8
R2V
62
0
70
32
10
6.619048
20
3.738095
30
0
0
VERTEX
8
R2V
62
0
70
32
10
6.428571
20
3.976190
30
0
0
VERTEX
8
R2V
62
0
70
32
10
6.357143
20
4.166667
30
0
0
VERTEX
8
R2V
62
0
70
32
10
6.380952
20
4.261905
30
0
0
VERTEX
8
R2V
62
0
70
32
10
6.285714
20
4.261905
30
0
0
VERTEX
8
R2V
62
0
70
32
10
6.333333
20
4.309524
30
0
0
VERTEX
8
R2V
62
0
70
32
10
6.333333
20
4.261905
30
0
0
SEQEND
0
POLYLINE
8
R2V
62
0
66
1
70
8
0
VERTEX
8
R2V
62
0
70
32
10
8.238095
20
3.357143
30
0
0
VERTEX
8
R2V
62
0
70
32
10
8.285714
20
3.428571
30
0
0
VERTEX
8
R2V
62
0
70
32
10
8.428571
20
3.523810
30
0
0
VERTEX
8
R2V
62
0
70
32
10
8.476190
20
3.690476
30
0
0
VERTEX
8
R2V
62
0
70
32
10
8.523810
20
4.023810
30
0
0
VERTEX
8
R2V
62
0
70
32
10
8.642857
20
4.142857
30
0
0
VERTEX
8
R2V
62
0
70
32
10
9.095238
20
4.238095
30
0
0
VERTEX
8
R2V
62
0
70
32
10
9.404762
20
4.238095
30
0
0
VERTEX
8
R2V
62
0
70
32
10
9.476190
20
4.214286
30
0
0
VERTEX
8
R2V
62
0
70
32
10
9.571429
20
4.261905
30
0
0
VERTEX
8
R2V
62
0
70
32
10
9.642857
20
4.214286
30
0
0
VERTEX
8
R2V
62
0
70
32
10
9.595238
20
3.976190
30
0
0
VERTEX
8
R2V
62
0
70
32
10
9.428571
20
3.785714
30
0
0
VERTEX
8
R2V
62
0
70
32
10
9.404762
20
3.666667
30
0
0
VERTEX
8
R2V
62
0
70
32
10
9.357143
20
3.595238
30
0
0
VERTEX
8
R2V
62
0
70
32
10
9.380952
20
3.523810
30
0
0
SEQEND
0
POLYLINE
8
R2V
62
0
66
1
70
8
0
VERTEX
8
R2V
62
0
70
32
10
8.238095
20
3.357143
30
0
0
VERTEX
8
R2V
62
0
70
32
10
8.238095
20
3.333333
30
0
0
SEQEND
0
POLYLINE
8
R2V
62
0
66
1
70
8
0
VERTEX
8
R2V
62
0
70
32
10
9.404762
20
3.523810
30
0
0
VERTEX
8
R2V
62
0
70
32
10
9.428571
20
3.547619
30
0
0
VERTEX
8
R2V
62
0
70
32
10
9.452381
20
3.571429
30
0
0
VERTEX
8
R2V
62
0
70
32
10
9.452381
20
3.595238
30
0
0
VERTEX
8
R2V
62
0
70
32
10
9.380952
20
3.595238
30
0
0
SEQEND
0
POLYLINE
8
R2V
62
0
66
1
70
8
0
VERTEX
8
R2V
62
0
70
32
10
9.595238
20
3.928571
30
0
0
VERTEX
8
R2V
62
0
70
32
10
9.642857
20
3.928571
30
0
0
VERTEX
8
R2V
62
0
70
32
10
9.571429
20
3.833333
30
0
0
VERTEX
8
R2V
62
0
70
32
10
9.571429
20
3.952381
30
0
0
SEQEND
0
POLYLINE
8
R2V
62
0
66
1
70
8
0
VERTEX
8
R2V
62
0
70
32
10
3.904762
20
4.000000
30
0
0
VERTEX
8
R2V
62
0
70
32
10
3.880952
20
3.976190
30
0
0
VERTEX
8
R2V
62
0
70
32
10
3.857143
20
4.000000
30
0
0
VERTEX
8
R2V
62
0
70
32
10
3.880952
20
4.023810
30
0
0
SEQEND
0
POLYLINE
8
R2V
62
0
66
1
70
8
0
VERTEX
8
R2V
62
0
70
32
10
6.357143
20
4.166667
30
0
0
VERTEX
8
R2V
62
0
70
32
10
6.333333
20
4.190476
30
0
0
VERTEX
8
R2V
62
0
70
32
10
6.333333
20
4.214286
30
0
0
VERTEX
8
R2V
62
0
70
32
10
6.380952
20
4.214286
30
0
0
SEQEND
0
POLYLINE
8
R2V
62
0
66
1
70
8
0
VERTEX
8
R2V
62
0
70
32
10
3.547619
20
4.238095
30
0
0
VERTEX
8
R2V
62
0
70
32
10
3.500000
20
4.309524
30
0
0
VERTEX
8
R2V
62
0
70
32
10
3.571429
20
4.214286
30
0
0
SEQEND
0
POLYLINE
8
R2V
62
0
66
1
70
8
0
VERTEX
8
R2V
62
0
70
32
10
6.285714
20
4.285714
30
0
0
VERTEX
8
R2V
62
0
70
32
10
6.214286
20
4.619048
30
0
0
VERTEX
8
R2V
62
0
70
32
10
6.261905
20
4.690476
30
0
0
VERTEX
8
R2V
62
0
70
32
10
6.261905
20
5.190476
30
0
0
VERTEX
8
R2V
62
0
70
32
10
6.357143
20
5.500000
30
0
0
VERTEX
8
R2V
62
0
70
32
10
6.452381
20
5.738095
30
0
0
VERTEX
8
R2V
62
0
70
32
10
6.380952
20
5.738095
30
0
0
VERTEX
8
R2V
62
0
70
32
10
6.357143
20
5.690476
30
0
0
VERTEX
8
R2V
62
0
70
32
10
6.261905
20
5.785714
30
0
0
VERTEX
8
R2V
62
0
70
32
10
6.071429
20
5.785714
30
0
0
VERTEX
8
R2V
62
0
70
32
10
5.976190
20
5.857143
30
0
0
VERTEX
8
R2V
62
0
70
32
10
5.833333
20
5.904762
30
0
0
VERTEX
8
R2V
62
0
70
32
10
5.761905
20
6.047619
30
0
0
VERTEX
8
R2V
62
0
70
32
10
5.714286
20
6.142857
30
0
0
VERTEX
8
R2V
62
0
70
32
10
5.714286
20
6.309524
30
0
0
VERTEX
8
R2V
62
0
70
32
10
5.571429
20
6.428571
30
0
0
VERTEX
8
R2V
62
0
70
32
10
5.500000
20
6.523810
30
0
0
VERTEX
8
R2V
62
0
70
32
10
5.285714
20
6.928571
30
0
0
VERTEX
8
R2V
62
0
70
32
10
5.119048
20
7.071429
30
0
0
VERTEX
8
R2V
62
0
70
32
10
4.809524
20
7.095238
30
0
0
VERTEX
8
R2V
62
0
70
32
10
4.714286
20
7.023810
30
0
0
VERTEX
8
R2V
62
0
70
32
10
4.595238
20
6.809524
30
0
0
VERTEX
8
R2V
62
0
70
32
10
4.476190
20
6.833333
30
0
0
VERTEX
8
R2V
62
0
70
32
10
4.261905
20
6.952381
30
0
0
VERTEX
8
R2V
62
0
70
32
10
4.119048
20
7.095238
30
0
0
VERTEX
8
R2V
62
0
70
32
10
4.095238
20
7.238095
30
0
0
VERTEX
8
R2V
62
0
70
32
10
3.976190
20
7.428571
30
0
0
VERTEX
8
R2V
62
0
70
32
10
3.761905
20
7.571429
30
0
0
VERTEX
8
R2V
62
0
70
32
10
3.690476
20
7.666667
30
0
0
VERTEX
8
R2V
62
0
70
32
10
3.523810
20
7.809524
30
0
0
VERTEX
8
R2V
62
0
70
32
10
3.023810
20
7.809524
30
0
0
VERTEX
8
R2V
62
0
70
32
10
3.023810
20
7.642857
30
0
0
VERTEX
8
R2V
62
0
70
32
10
2.071429
20
7.666667
30
0
0
VERTEX
8
R2V
62
0
70
32
10
1.357143
20
7.952381
30
0
0
VERTEX
8
R2V
62
0
70
32
10
1.166667
20
8.000000
30
0
0
VERTEX
8
R2V
62
0
70
32
10
0.976190
20
8.095238
30
0
0
VERTEX
8
R2V
62
0
70
32
10
1.000000
20
8.142857
30
0
0
VERTEX
8
R2V
62
0
70
32
10
0.261905
20
8.071429
30
0
0
VERTEX
8
R2V
62
0
70
32
10
0.285714
20
7.976190
30
0
0
VERTEX
8
R2V
62
0
70
32
10
0.333333
20
7.976190
30
0
0
VERTEX
8
R2V
62
0
70
32
10
0.357143
20
7.880952
30
0
0
VERTEX
8
R2V
62
0
70
32
10
0.428571
20
7.833333
30
0
0
VERTEX
8
R2V
62
0
70
32
10
0.428571
20
7.690476
30
0
0
VERTEX
8
R2V
62
0
70
32
10
0.571429
20
7.476190
30
0
0
VERTEX
8
R2V
62
0
70
32
10
0.595238
20
7.309524
30
0
0
VERTEX
8
R2V
62
0
70
32
10
0.642857
20
7.309524
30
0
0
VERTEX
8
R2V
62
0
70
32
10
0.714286
20
7.047619
30
0
0
VERTEX
8
R2V
62
0
70
32
10
0.738095
20
7.047619
30
0
0
VERTEX
8
R2V
62
0
70
32
10
0.952381
20
6.904762
30
0
0
VERTEX
8
R2V
62
0
70
32
10
1.214286
20
6.619048
30
0
0
VERTEX
8
R2V
62
0
70
32
10
1.166667
20
6.452381
30
0
0
VERTEX
8
R2V
62
0
70
32
10
1.119048
20
6.380952
30
0
0
VERTEX
8
R2V
62
0
70
32
10
0.952381
20
6.380952
30
0
0
VERTEX
8
R2V
62
0
70
32
10
0.904762
20
6.380952
30
0
0
VERTEX
8
R2V
62
0
70
32
10
1.071429
20
6.238095
30
0
0
VERTEX
8
R2V
62
0
70
32
10
1.119048
20
6.166667
30
0
0
VERTEX
8
R2V
62
0
70
32
10
1.142857
20
6.166667
30
0
0
VERTEX
8
R2V
62
0
70
32
10
1.309524
20
6.047619
30
0
0
VERTEX
8
R2V
62
0
70
32
10
1.357143
20
6.000000
30
0
0
VERTEX
8
R2V
62
0
70
32
10
1.428571
20
6.047619
30
0
0
VERTEX
8
R2V
62
0
70
32
10
1.738095
20
5.833333
30
0
0
VERTEX
8
R2V
62
0
70
32
10
1.833333
20
5.571429
30
0
0
VERTEX
8
R2V
62
0
70
32
10
1.785714
20
5.309524
30
0
0
VERTEX
8
R2V
62
0
70
32
10
1.857143
20
5.238095
30
0
0
VERTEX
8
R2V
62
0
70
32
10
1.904762
20
5.238095
30
0
0
VERTEX
8
R2V
62
0
70
32
10
1.928571
20
5.214286
30
0
0
VERTEX
8
R2V
62
0
70
32
10
2.000000
20
5.214286
30
0
0
VERTEX
8
R2V
62
0
70
32
10
2.309524
20
4.952381
30
0
0
VERTEX
8
R2V
62
0
70
32
10
2.357143
20
4.952381
30
0
0
VERTEX
8
R2V
62
0
70
32
10
2.476190
20
4.690476
30
0
0
VERTEX
8
R2V
62
0
70
32
10
2.642857
20
4.809524
30
0
0
VERTEX
8
R2V
62
0
70
32
10
2.595238
20
4.952381
30
0
0
VERTEX
8
R2V
62
0
70
32
10
2.523810
20
5.047619
30
0
0
VERTEX
8
R2V
62
0
70
32
10
2.500000
20
5.190476
30
0
0
SEQEND
0
POLYLINE
8
R2V
62
0
66
1
70
8
0
VERTEX
8
R2V
62
0
70
32
10
6.309524
20
4.309524
30
0
0
VERTEX
8
R2V
62
0
70
32
10
6.309524
20
4.333333
30
0
0
VERTEX
8
R2V
62
0
70
32
10
6.261905
20
4.333333
30
0
0
SEQEND
0
POLYLINE
8
R2V
62
0
66
1
70
8
0
VERTEX
8
R2V
62
0
70
32
10
2.500000
20
5.119048
30
0
0
VERTEX
8
R2V
62
0
70
32
10
2.380952
20
5.166667
30
0
0
VERTEX
8
R2V
62
0
70
32
10
2.285714
20
5.166667
30
0
0
VERTEX
8
R2V
62
0
70
32
10
2.238095
20
5.309524
30
0
0
VERTEX
8
R2V
62
0
70
32
10
2.285714
20
5.428571
30
0
0
VERTEX
8
R2V
62
0
70
32
10
2.190476
20
5.452381
30
0
0
VERTEX
8
R2V
62
0
70
32
10
2.119048
20
5.595238
30
0
0
VERTEX
8
R2V
62
0
70
32
10
2.071429
20
5.690476
30
0
0
VERTEX
8
R2V
62
0
70
32
10
2.119048
20
5.761905
30
0
0
SEQEND
0
POLYLINE
8
R2V
62
0
66
1
70
8
0
VERTEX
8
R2V
62
0
70
32
10
2.380952
20
5.166667
30
0
0
VERTEX
8
R2V
62
0
70
32
10
2.333333
20
5.261905
30
0
0
VERTEX
8
R2V
62
0
70
32
10
2.357143
20
5.261905
30
0
0
VERTEX
8
R2V
62
0
70
32
10
2.357143
20
5.214286
30
0
0
SEQEND
0
POLYLINE
8
R2V
62
0
66
1
70
8
0
VERTEX
8
R2V
62
0
70
32
10
2.380952
20
5.166667
30
0
0
VERTEX
8
R2V
62
0
70
32
10
2.380952
20
5.142857
30
0
0
SEQEND
0
POLYLINE
8
R2V
62
0
66
1
70
8
0
VERTEX
8
R2V
62
0
70
32
10
1.904762
20
5.238095
30
0
0
VERTEX
8
R2V
62
0
70
32
10
1.904762
20
5.309524
30
0
0
VERTEX
8
R2V
62
0
70
32
10
1.880952
20
5.333333
30
0
0
VERTEX
8
R2V
62
0
70
32
10
1.785714
20
5.333333
30
0
0
SEQEND
0
POLYLINE
8
R2V
62
0
66
1
70
8
0
VERTEX
8
R2V
62
0
70
32
10
1.904762
20
5.238095
30
0
0
VERTEX
8
R2V
62
0
70
32
10
1.904762
20
5.214286
30
0
0
SEQEND
0
POLYLINE
8
R2V
62
0
66
1
70
8
0
VERTEX
8
R2V
62
0
70
32
10
1.904762
20
5.238095
30
0
0
VERTEX
8
R2V
62
0
70
32
10
1.928571
20
5.261905
30
0
0
VERTEX
8
R2V
62
0
70
32
10
1.952381
20
5.261905
30
0
0
VERTEX
8
R2V
62
0
70
32
10
1.952381
20
5.238095
30
0
0
SEQEND
0
POLYLINE
8
R2V
62
0
66
1
70
8
0
VERTEX
8
R2V
62
0
70
32
10
1.952381
20
5.238095
30
0
0
VERTEX
8
R2V
62
0
70
32
10
1.976190
20
5.214286
30
0
0
SEQEND
0
POLYLINE
8
R2V
62
0
66
1
70
8
0
VERTEX
8
R2V
62
0
70
32
10
3.071429
20
5.357143
30
0
0
VERTEX
8
R2V
62
0
70
32
10
3.047619
20
5.357143
30
0
0
VERTEX
8
R2V
62
0
70
32
10
3.023810
20
5.380952
30
0
0
VERTEX
8
R2V
62
0
70
32
10
3.023810
20
5.404762
30
0
0
VERTEX
8
R2V
62
0
70
32
10
3.047619
20
5.404762
30
0
0
SEQEND
0
POLYLINE
8
R2V
62
0
66
1
70
8
0
VERTEX
8
R2V
62
0
70
32
10
2.261905
20
5.380952
30
0
0
VERTEX
8
R2V
62
0
70
32
10
2.285714
20
5.380952
30
0
0
SEQEND
0
POLYLINE
8
R2V
62
0
66
1
70
8
0
VERTEX
8
R2V
62
0
70
32
10
2.261905
20
5.380952
30
0
0
VERTEX
8
R2V
62
0
70
32
10
2.238095
20
5.404762
30
0
0
VERTEX
8
R2V
62
0
70
32
10
2.238095
20
5.428571
30
0
0
SEQEND
0
POLYLINE
8
R2V
62
0
66
1
70
8
0
VERTEX
8
R2V
62
0
70
32
10
2.809524
20
5.595238
30
0
0
VERTEX
8
R2V
62
0
70
32
10
2.809524
20
5.642857
30
0
0
VERTEX
8
R2V
62
0
70
32
10
2.785714
20
5.642857
30
0
0
VERTEX
8
R2V
62
0
70
32
10
2.761905
20
5.619048
30
0
0
SEQEND
0
POLYLINE
8
R2V
62
0
66
1
70
8
0
VERTEX
8
R2V
62
0
70
32
10
2.071429
20
5.690476
30
0
0
VERTEX
8
R2V
62
0
70
32
10
2.095238
20
5.690476
30
0
0
SEQEND
0
POLYLINE
8
R2V
62
0
66
1
70
8
0
VERTEX
8
R2V
62
0
70
32
10
2.071429
20
5.690476
30
0
0
VERTEX
8
R2V
62
0
70
32
10
1.952381
20
6.023810
30
0
0
VERTEX
8
R2V
62
0
70
32
10
1.880952
20
6.047619
30
0
0
VERTEX
8
R2V
62
0
70
32
10
1.928571
20
6.047619
30
0
0
VERTEX
8
R2V
62
0
70
32
10
1.928571
20
6.023810
30
0
0
SEQEND
0
POLYLINE
8
R2V
62
0
66
1
70
8
0
VERTEX
8
R2V
62
0
70
32
10
1.976190
20
5.952381
30
0
0
VERTEX
8
R2V
62
0
70
32
10
1.928571
20
5.952381
30
0
0
VERTEX
8
R2V
62
0
70
32
10
1.904762
20
5.976190
30
0
0
VERTEX
8
R2V
62
0
70
32
10
1.904762
20
6.000000
30
0
0
VERTEX
8
R2V
62
0
70
32
10
1.928571
20
5.976190
30
0
0
SEQEND
0
POLYLINE
8
R2V
62
0
66
1
70
8
0
VERTEX
8
R2V
62
0
70
32
10
1.476190
20
6.023810
30
0
0
VERTEX
8
R2V
62
0
70
32
10
1.476190
20
6.071429
30
0
0
SEQEND
0
POLYLINE
8
R2V
62
0
66
1
70
8
0
VERTEX
8
R2V
62
0
70
32
10
1.880952
20
6.047619
30
0
0
VERTEX
8
R2V
62
0
70
32
10
1.714286
20
6.309524
30
0
0
VERTEX
8
R2V
62
0
70
32
10
1.642857
20
6.357143
30
0
0
VERTEX
8
R2V
62
0
70
32
10
1.571429
20
6.595238
30
0
0
VERTEX
8
R2V
62
0
70
32
10
1.500000
20
6.619048
30
0
0
VERTEX
8
R2V
62
0
70
32
10
1.452381
20
6.738095
30
0
0
VERTEX
8
R2V
62
0
70
32
10
1.357143
20
6.785714
30
0
0
VERTEX
8
R2V
62
0
70
32
10
1.404762
20
6.785714
30
0
0
VERTEX
8
R2V
62
0
70
32
10
1.404762
20
6.761905
30
0
0
SEQEND
0
POLYLINE
8
R2V
62
0
66
1
70
8
0
VERTEX
8
R2V
62
0
70
32
10
1.119048
20
6.380952
30
0
0
VERTEX
8
R2V
62
0
70
32
10
1.119048
20
6.357143
30
0
0
VERTEX
8
R2V
62
0
70
32
10
1.166667
20
6.357143
30
0
0
VERTEX
8
R2V
62
0
70
32
10
1.166667
20
6.380952
30
0
0
VERTEX
8
R2V
62
0
70
32
10
1.142857
20
6.404762
30
0
0
SEQEND
0
POLYLINE
8
R2V
62
0
66
1
70
8
0
VERTEX
8
R2V
62
0
70
32
10
1.785714
20
6.785714
30
0
0
VERTEX
8
R2V
62
0
70
32
10
1.738095
20
6.714286
30
0
0
VERTEX
8
R2V
62
0
70
32
10
1.666667
20
6.785714
30
0
0
VERTEX
8
R2V
62
0
70
32
10
1.714286
20
6.880952
30
0
0
VERTEX
8
R2V
62
0
70
32
10
1.785714
20
6.880952
30
0
0
SEQEND
0
POLYLINE
8
R2V
62
0
66
1
70
8
0
VERTEX
8
R2V
62
0
70
32
10
1.380952
20
6.809524
30
0
0
VERTEX
8
R2V
62
0
70
32
10
1.238095
20
7.000000
30
0
0
VERTEX
8
R2V
62
0
70
32
10
1.095238
20
7.095238
30
0
0
VERTEX
8
R2V
62
0
70
32
10
1.047619
20
7.166667
30
0
0
VERTEX
8
R2V
62
0
70
32
10
1.000000
20
7.500000
30
0
0
VERTEX
8
R2V
62
0
70
32
10
0.952381
20
7.547619
30
0
0
VERTEX
8
R2V
62
0
70
32
10
0.976190
20
7.809524
30
0
0
SEQEND
0
POLYLINE
8
R2V
62
0
66
1
70
8
0
VERTEX
8
R2V
62
0
70
32
10
1.404762
20
6.880952
30
0
0
VERTEX
8
R2V
62
0
70
32
10
1.476190
20
6.880952
30
0
0
VERTEX
8
R2V
62
0
70
32
10
1.452381
20
6.833333
30
0
0
VERTEX
8
R2V
62
0
70
32
10
1.357143
20
7.000000
30
0
0
VERTEX
8
R2V
62
0
70
32
10
1.380952
20
7.000000
30
0
0
VERTEX
8
R2V
62
0
70
32
10
1.428571
20
6.904762
30
0
0
SEQEND
0
POLYLINE
8
R2V
62
0
66
1
70
8
0
VERTEX
8
R2V
62
0
70
32
10
0.428571
20
7.690476
30
0
0
VERTEX
8
R2V
62
0
70
32
10
0.452381
20
7.714286
30
0
0
SEQEND
0
POLYLINE
8
R2V
62
0
66
1
70
8
0
VERTEX
8
R2V
62
0
70
32
10
0.857143
20
6.452381
30
0
0
VERTEX
8
R2V
62
0
70
32
10
0.880952
20
6.476190
30
0
0
VERTEX
8
R2V
62
0
70
32
10
0.880952
20
6.523810
30
0
0
VERTEX
8
R2V
62
0
70
32
10
0.857143
20
6.547619
30
0
0
VERTEX
8
R2V
62
0
70
32
10
0.833333
20
6.547619
30
0
0
VERTEX
8
R2V
62
0
70
32
10
0.833333
20
6.476190
30
0
0
VERTEX
8
R2V
62
0
70
32
10
0.857143
20
6.452381
30
0
0
SEQEND
0
ENDSEC
0
EOF
